Tab From LEO

The song Branded off the "Pushed" release. 


Repeat 8 times gtr.1&2 tuned to Eb,Then tune low E(b) down to D#
Opening Riff which is played thru each Verse:

e-|------------------------------------------------------------/---------------
b-|------------------------------------------------------------/---------------
g-|------------------------------------------------------------/---------------
d-|----------------------------------------------7--5----------/---------------
a-|-----------0-h-3-5-5---------------0h-3-3----5--3----------/---------------
e-|00-h3h5--0-------------000--h3-h5-0-------------------------/---------------
p.m. xxxxx p.m.xxxxxxxx x x


This is the Chorus Riff:
e-|-------/------------------------------------------------------------------
b-|-------/------------------------------------------------------------------
g-|-------/------------------------------------------------------------------
d-|-5-----/------7---------5-5-----------------------------------------------
a-|-3-----/------5---------3-3-----------------------------------------------
e-|-------/------------------------------------------------------------------
p.m. p.m. p.m.


Breakdown Riff:

e-|----------------------------------------------------------------------------
b-|----------------------------------------------------------------------------
g-|----------------------------------------------------------------------------
d-|----------------------------------------------------------------------------
a-|----------------------35/3--------------------35/3------------------------
e-|---000000000000000000-------000000000000000000------------------------------
p.m.xxxxxxxxxxxxxxxxxxxxxxxxxxxxxxxxx


Outro Solo:
e-|-12b-r-12b-r-9-12h-12p-x-9-xxxxxxxxx-12b-r-----12h-----12h-----12h-----12h--
b-|-------------------------------------------12h-----12h-----12h-----12h------
g-|----------------------------------------------------------------------------
d-|----------------------------------------------------------------------------
a-|----------------------------------------------------------------------------
e-|----------------------------------------------------------------------------
OUTRO SOLO over main Riff :
e-|-----12h-----12h-----12h---12-10-9---------12-10-9---------12-10-9----------
b-|-12h-----12h-----12h---------------12-10-9---------12-10-9---------12-10-9--
g-|----------------------------------------------------------------------------
d-|----------------------------------------------------------------------------
a-|----------------------------------------------------------------------------
e-|----------------------------------------------------------------------------

e-|-12-10-9----------12-10-9---------12-10-9---------12-10-9-------9-----------
b-|---------12-10-9----------12-10-9---------12-10-9---------12b-r-------------
g-|----------------------------------------------------------------------------
d-|----------------------------------------------------------------------------
a-|----------------------------------------------------------------------------
e-|----------------------------------------------------------------------------


e-12xxxxxxxxxxxxxxxxxxxxxxx----------------------------------------------------
b------------------------------------------------------------------------------
g------------------------------------------------------------------------------
d------------------------------------------------------------------------------
a------------------------------------------------------------------------------
e------------------------------------------------------------------------------


Till Next Time!! Tony

1998/2018 © A.G.M.,LLC All Rights Reserved ® LOW EARTH ORBIT Name is Trademark And Can Not be used without strict written permission from A.McBrayer